허벌나게 쉬운 애드립 <4> - 사용자팁 - 모터핑거

모터핑거

일렉기타 통기타 베이스 강좌 커뮤니티

허벌나게 쉬운 애드립 &lt;4&gt; - 사용자팁 - 모터핑거 으음 -_- 성원에 (?) 힘입어 또 쓴다. 이번에는 저 - 일렉기타 통기타 베이스 강좌 커뮤니티

모터핑거 알림:

내용

다른 회원들에게 살짝 귀뜸해주고픈 노하우가 있다면 공유해 주세요.

◀ForeverX▶ 15년 전 조회 1,186 댓글 4
URL

http://www.motorfinger.net/9357 복사


으음 -_- 성원에 (?) 힘입어 또 쓴다. 이번에는 저번에 말했다 시피

테크닉 남은걸 마저 한다.

( 으음 -_- 연제가 애드립보다는 태크닉에 치중된다는 말이 잇는데.
  으음 것땜에 일부러 타브 그려감서 예제 제시한겁니다. 허접하게나마
  제가 애드립 할때 자주 사용하는 프레이즈 이므로 연습하믄 응용 가능합니다.)

@트릴

그냥 풀링오프를 쌔가빠지게 하는거다. 으음 -_- 설명은 스쿨란에 다 있으므로

예제만 설명 하게씀

--<t-12-13-12-13-12-13-12-13>-------------------------------------
-------------------------------15--12-----------------------------
---------------------------------------14--12---------------------
------------------------------------------------14~~~-----------
------------------------------------------------------------------
------------------------------------------------------------------

@글리산도

이 테크닉이 별거 아닌거 같아도 많이 쓰이고 느낌또한 많이 바꾸기 땜에

중요하다! 예제를 보자!

--8==10-10-8-8==12-12---------------------------------------
----------------------13-13==15-15 12 13~~~~~~~~~-------
------------------------------------------------------------
------------------------------------------------------------
------------------------------------------------------------
------------------------------------------------------------

으음 근데 속직히 말하믄 -_- 글리산도는 애드립의 테크닉으로 쓰이기 보다는

다른 모드의 블럭으로 음을 옴길때 먼가 거시기한 느낌이 있는데 그걸 글리산도로

적절히 연결해주믄 꽤나 괜찮은 연결을 할수 있다. 으음 그럼


으음 젤 허접한 연제가 되었다. 젠장 -_-;;; 으음 독자의 소리를 많이 못들어서

지금 열분들에게 머가 피료한지 나도 잘 몰그따 으음 -_-;; 최대한 빨리

생각 해내서 쉬운 애드립에 도움이 되도록 하곘다~~

담에 BOA요
페이스북 트위터
페이스북 트위터
http://www.motorfinger.net/9357/URL복사
댓글4::: 댓글을 작성하려면 로그인해 주세요.
잔잔하게2012.02.02. PM 5:46 답글수정삭제신고
감사합니다^^ 좋은정보고맙습니다
oO적화Oo2009.03.10. PM 11:54 답글수정삭제신고
ㅋㅋ
연약한애2004.07.09. PM 11:07 답글수정삭제신고
  빨리 더올려주세요
필요한거는 key를 보고 스케일 적용하잖아요~~.. 근대.. 마디마다 나와있는 코드들에 스케일을 어떻게 따로 따라 적용하는지??
C key 라고 해서 아무대서나 도레미파솔라시도 치는건 아니잖아요..
곡에 나와있는 코드들이 어떤영향을 끼치는지~~!!! 부탁! ^^
이성수2003.12.07. PM 8:12 답글수정삭제신고
  정말 수고 하셧네여.. ^^



감사히 보고 배우겠습니다.. ^______________________________________^

원튜~

공지사항

서비스 전체보기 >
서버 접속중...
음소거를 해제 해주세요.