크로메틱에대해 - 사용자팁 - 모터핑거

모터핑거

일렉기타 통기타 베이스 강좌 커뮤니티

크로메틱에대해 - 사용자팁 - 모터핑거 처음에 크로메틱 부러 하라고 듣기도 하고 읽기도하는 - 일렉기타 통기타 베이스 강좌 커뮤니티

모터핑거 알림:

내용

다른 회원들에게 살짝 귀뜸해주고픈 노하우가 있다면 공유해 주세요.

qkrwlxjf 9년 전 조회 746 댓글 8
URL

http://www.motorfinger.net/20523 복사

처음에 크로메틱 부러 하라고 듣기도 하고 읽기도하는데 대체 그코메틱이 뭔지 알길이 업엇죠 ㅋ ;

지식인을 찾아봣죠 ㅋㅋ 알기 쉽게 어떤 님이 올려주셧더라고요 ㅎ ,,

크로메틱[펌]
============================================================================================
크로매틱이란 반음계를 의미하느 말입니다. 뭐.. 하나마나한 소리지만 속도가 빠르다면
크로매틱을 사용하여 코드에 상관없이 모든 곡의 애드립을 할 수도 있습니다.
그러나 크로매틱 스케일은 그런 식으로 애드립에 쓰인다기 보다는 기본적으로 손가락 연습용으로 많이 쓰입니다.
어떤 코드에 종속되지 않는 여러가지의 모양으로 크로매틱 스케일을 연습해 줌으로써 손가락을 풀어 주는 겁니다.

어떤거냐면은요...

|-4-3-2-1-5-4-3-2-6-5-4-3-5-4-3-2-|-6-5-4-3-7-6-5-4-8-7-6-5-7-6-5-4-|
|---------------------------------|---------------------------------|
|---------------------------------|---------------------------------|
|---------------------------------|---------------------------------|
|---------------------------------|---------------------------------|
|---------------------------------|---------------------------------|

이나

|-1-2-3-4-----------------------------------------|
|---------1-2-3-4---------------------------------|
|-----------------1-2-3-4-------------------------|
|-------------------------1-2-3-4-----------------|
|---------------------------------1-2-3-4---------|
|-----------------------------------------1-2-3-4-|

처럼 손가락 연습을 할 수 있도록 한 것입니다.
피아노에서 `하농' 과 같은거죠.
뭐 여러가지 있습니다.
손가락의 힘과 속도를 향상시켜 주는 연습입니다.

여기서 중요한 것이 있는데...
물론 속도도 중요하지만 정확히 음을 내는게 더 중요합니다.
속도가 좀 느리더라도 정확히 음을 내는데 더 충실하시길...

크로매틱 스케일을 연습할 때 가장 유의할 점은...
1. 같은속도로
2. 끈질기게
3. 얼터네이트 피킹으로 빨리 하면 좋습니다.

참 타브 악보 보는 법은 아세용....

타브(tab)악보 보는 법

`타브(tab : tablature의 준말)악보' 라 함은 일반 콩나물 대가리 음표보다 알기 쉽고 기타에 맞게 음을 표시 할 수 있는 기보법을 말합니다.

및의 그림이 일반적인 타브 악보의 표시입니다.

미 E ------------------------------- 1번줄
시 B ------------------------------- 2번줄
솔 G ------------------------------- 3번줄
레 D ------------------------------- 4번줄
라 A ------------------------------- 5번줄
미 E ------------------------------- 6번줄

왼쪽은 open음, 그러니까 프렛을 잡지 않고 그냥 튕겼을 때 나는 음을 표시한겁니다.

타브악보는 기타를 눕혔을 때의 모양과 똑같으니까 맨 밑에 줄이 젤 두꺼운 줄(6번줄), 맨 윗줄이 젤 얇은 줄(1번줄)이 되겠죠.

예를 들어 보죠.

E -----5-------|-----5-------|-----5-------|-----8-8-6--
B ---6---8-5-6-|---6---8-5-6-|---6---8-5-6-|-5-6--------
G -7-----------|-7-----------|-7-----------|------------
D -------------|-------------|-------------|------------
A -------------|-------------|-------------|------------
E -------------|-------------|-------------|------------

첫번째 7은 3번줄의 7프렛을 치라는 소리죠.
그 다음 6은 2번줄의 6프렛, 그 다음 5는 1번줄의 5프렛...
쉽죠? 좀만 연습하시면 금방 익숙해 지실 겁니다.

출처= 네이버 지식인 ^-^
페이스북 트위터
페이스북 트위터
http://www.motorfinger.net/20523/URL복사
댓글8::: 댓글을 작성하려면 로그인해 주세요.
고삼봉2012.08.04. PM 3:48 답글수정삭제신고
잘 보았습니다ㅎ
잔잔하게2012.02.02. PM 5:40 답글수정삭제신고
감사합니다
마일로v2011.04.30. PM 12:04 답글수정삭제신고
정리잘해주셔서 감사합니다 ^ ^
victoty2011.01.28. PM 9:14 답글수정삭제신고
와 감사합니당
비오니까2010.11.29. AM 10:47 답글수정삭제신고
감사합니다^^
칸세이 류자키2010.09.22. PM 10:04 답글수정삭제신고
좋은 정보감사드립니다 ㅋ
ikda2010.08.07. PM 9:52 답글수정삭제신고
owo
marshmallow2010.03.21. PM 8:25 답글수정삭제신고
wow

공지사항

서비스 전체보기 >
서버 접속중...
음소거를 해제 해주세요.